Jump to content


- - - - -

He Said He Had A Story


  • Please log in to reply
5 replies to this topic

#1 Matrigan

Matrigan

    n00b or lurker?

  • Members
  • 14 posts
  • Gender:m

Posted 18 August 2009 - 10:19 PM

I'm surprised no one's posted this yet. Does anyone have it? Even the main guitar riff would be enough for me. Thanks.

#2 Roger

Roger

    Bieber Believer

  • Regulars
  • PipPipPip
  • 486 posts
  • Gender:m
  • Location:Costa Mesa, CA

Posted 18 August 2009 - 11:44 PM

I've been meaning to type it out, but I've been lazy. I have pretty much everything but the first chorus-ish thing. I don't know how the main riff is played exactly, but I have the chords and everything, and I'm sure with the help of others we could figure it out. I'll try to post the chords tomorrow.

#3 Dave.

Dave.

    Believe What You're Led To Believe

  • Regulars
  • PipPipPipPipPip
  • 759 posts
  • Gender:m
  • Location:New York

Posted 19 August 2009 - 10:55 AM

Here I just tabbed out some of the main riffs and background guitar and stuff. I'll let roger handle the chords =]
E||------------------------|
B||------------------------|
G||-------5--4--5--4-------|
D||--7----------------7----|
A||------------------------|
E||------------------------|


 
---------------------|
---------------------|
--4------------------|
-------6--------7----|
---------------------|
---------------------|



------------------------|
------------------------|
-------5--4--5--4-------|
-------------------7----|
--0---------------------|
------------------------|

 
---------------------|
---------------------|
--4------------------|
-------6--------7----|
---------------------|
---------------------|


 
------------------------|
------------------------|
-------5--4--5--4-------|
-------------------7----|
--0---------------------|
------------------------|



---------------------|
---------------------|
--4------------------|
-------6--------7----|
---------------------|
---------------------|


 
------------------------|
------------------------|
-------5--4--5--4-------|
-------------------7----|
--0---------------------|
------------------------|


---------------------|----------------------|
---------------------|--15--------13--------|
--4------------------|----------------------|
-------6--------7----|----------------------|
---------------------|----------------------|
---------------------|----------------------|



----------------------|
--12--------10--------|
----------------------|
----------------------|
----------------------|
----------------------|



----------------------|---------------------|
--13--------12--------|--10--------9--------|
----------------------|---------------------|
----------------------|---------------------|
----------------------|---------------------|
----------------------|---------------------|



----------------------|
--17--------15--------|
----------------------|
----------------------|
----------------------|
----------------------|


  
----------------------|---------------------|
--13--------12--------|--10--------9--------|
----------------------|---------------------|
----------------------|---------------------|
----------------------|---------------------|
----------------------|---------------------|



----------------------|--------------------|
--10--------12--------|--------------------|
----------------------|--------------------|
----------------------|-----------7--------|
----------------------|--0-----------------|
----------------------|--------------------|



--------------------|--------------------|
--------------------|--------------------|
--------------------|--------------------|
--6--------9--------|--7-----------------|
--------------------|-----------7--------|
--------------------|--------------------|



--------------------|--------------------|
--------------------|--------------------|
--------------------|--------------------|
--------------------|-----------7--------|
--8--------5--------|--7-----------------|
--------------------|--------------------|

 
--------------------|--------------------|
--------------------|--------------------|
--------------------|--------------------|
--6--------9--------|--7-----------------|
--------------------|-----------7--------|
--------------------|--------------------|



--------------------|----------------------|
--------------------|--15--------13--------|
--------------------|----------------------|
--------------------|----------------------|
--8--------5--------|----------------------|
--------------------|----------------------|



----------------------|
--12--------10--------|
----------------------|
----------------------|
----------------------|
----------------------|



----------------------|---------------------|
--13--------12--------|--10--------9--------|
----------------------|---------------------|
----------------------|---------------------|
----------------------|---------------------|
----------------------|---------------------|



----------------------|
--17--------15--------|
----------------------|
----------------------|
----------------------|
----------------------|



----------------------|---------------------|
--13--------12--------|--10--------9--------|
----------------------|---------------------|
----------------------|---------------------|
----------------------|---------------------|
----------------------|---------------------|


----------------------|--------------------|
--10--------12--------|--------------------|
----------------------|--------------------|
----------------------|-----------7--------|
----------------------|--0-----------------|
----------------------|--------------------|



--------------------|--------------------|
--------------------|--------------------|
--------------------|--------------------|
--6--------9--------|--7-----------------|
--------------------|-----------7--------|
--------------------|--------------------|



--------------------||
--------------------||
--------------------||
--------------------||
--8--------5--------||
--------------------||

You can't be caught red handed if you're not red handed

#4 Matrigan

Matrigan

    n00b or lurker?

  • Members
  • 14 posts
  • Gender:m

Posted 19 August 2009 - 05:49 PM

Thanks TrueDarkness, it sounds right on!

#5 Roger

Roger

    Bieber Believer

  • Regulars
  • PipPipPip
  • 486 posts
  • Gender:m
  • Location:Costa Mesa, CA

Posted 19 August 2009 - 07:20 PM

I still can't figure out the first chorus, but give me a little time and I'll get it.
Also, the above way is probably the correct positioning for the riff but I play it like this, so you can play it while keeping the Am shape.
|--------------------------|
|-----1-0-1-0-----0--------|
|--2-----------2-----1--2--|
|--------------------------|
|--------------------------|
|--------------------------|
			Am
There was a silver circle sign
And she was standing at the door.
We pressed our way right through the crowd,
Our pace was quickened to her floor.
			E7
There was a single feigning light,
And there was silk all on the walls,
		  C
She had a lot of love to give,
		 E				E7
I was prepared to take it all.
					 Am
(And what did she do next?)

She had disrobed and she was waiting on the floor.
She asked me what it was I want,
I thought that I wanted it all.
			  E7
(What did you say?)

I said stand up and move your body to the bed,
			C
She quickly stood and slowly turned
			 E						 E7
And here's exactly what she said...

"Please be soft and sweet to me,
This life has not been good, you
See, it's hard with such a history
Buried in mystery"

Verse = same chords.

(And what did you do next?)

I broke a smile, reminding that I payed
Her well.  Her lips returned, and then I felt
Her hands unbuckling my belt.

(So was it good?)

It felt like heaven but I'm sure she was in
Hell I made it clear I'd get my money's
Worth out of the goods she sells.

Dm				 E	   E7
Break and bind yourself to me,
   Am			F
Deliver what you sold you see that
Dm		  E		 E7
I will only take from you
	Am			   A
And use you up, I'll use you up.
Dm		   E	E7
What was her name?


#6 Matrigan

Matrigan

    n00b or lurker?

  • Members
  • 14 posts
  • Gender:m

Posted 20 August 2009 - 08:52 AM

Thanks Roger, once again you posted the accurate chords to a song!




0 user(s) are reading this topic

0 members, 0 guests, 0 anonymous users