Jump to content


- - - - -

His Hands Matched His Tongue


  • Please log in to reply
13 replies to this topic

#1 bethwallace

bethwallace

    n00b or lurker?

  • Members
  • 10 posts
  • Gender:f

Posted 20 May 2008 - 02:23 PM

Anybody have the tabs for this?
I've been trying to figure it out by ear for a week or so now and just can't get it quite right.

#2 Roger

Roger

    Bieber Believer

  • Regulars
  • PipPipPip
  • 486 posts
  • Gender:m
  • Location:Costa Mesa, CA

Posted 20 May 2008 - 05:45 PM

Yeah, I think I remember it. I'll get a tab done eventually.

#3 Dakota

Dakota

    Fell In Another Hole FORTHEKNIFEFORTHEKNIFE!!!

  • Regulars
  • PipPipPip
  • 317 posts

Posted 28 May 2008 - 02:10 AM

I know it, but don't know how to format tabs well. Help me help you.

#4 bethwallace

bethwallace

    n00b or lurker?

  • Members
  • 10 posts
  • Gender:f

Posted 23 June 2008 - 03:23 PM

View PostDakota, on May 28 2008, 02:10 AM, said:

I know it, but don't know how to format tabs well. Help me help you.

anyway you can type it here, i'm sure i would be able to figure out what you mean.

#5 Roger

Roger

    Bieber Believer

  • Regulars
  • PipPipPip
  • 486 posts
  • Gender:m
  • Location:Costa Mesa, CA

Posted 26 June 2008 - 03:19 PM

My tab for this is basically done so it's only a matter of my laziness ending till I post it.
His Hands Matched His Tongue

E||-----------------|-----------------|
B||--2--------2-----|--3--------3-----|
G||-----------------|-----------------|
D||--2-----------2--|--4-----------4--|
A||-------0---------|-------0---------|
E||-----------------|-----------------|

-----------------|-----------------|
--2--------2-----|--2--------2-----|
-----------------|-----------------|
--2-----------2--|--2-----------2--|
-------0---------|-------0---------|
-----------------|-----------------|

--------------------|-------------------|
--9--------9--------|--10--------10-9---|
--------------------|-------------------|
--9-----------9-----|--11---------------|
-------0------------|--------0----------|
--------------------|-------------------|

-----------------|------------------||
--7--------7-----|--7--------7------||
-----------------|-----------------*||
--7-----------7--|--7-----------7--*||
-------0---------|-------0----------||
-----------------|------------------||
  
---------------------|--------------------|
---7----------7------|--7----------7------|
*--7----------7------|--7----------7------|
*--------------------|--------------------|
---------------------|--------------------|
---7-----7------7----|--7-----7------7----|
	
--------------------|
--9----------9------|
--9----------9------|
--------------------|
--------------------|
--0-----0------0----|
 
-----------------------||-----------------|
--10----------10-9-----||--2--------2-----|
---9-----------9-9----*||-----------------|
----------------------*||--2-----------2--|
-----------------------||-------0---------|
---0-----0-------0-----||-----------------|
 
-----------------|-----------------|
--3--------3-----|--2--------2-----|
-----------------|-----------------|
--4-----------4--|--2-----------2--|
-------0---------|-------0---------|
-----------------|-----------------|

-----------------|-----------------|
--2--------2-----|--9--------9-----|
-----------------|-----------------|
--2-----------2--|--9-----------9--|
-------0---------|-------0---------|
-----------------|-----------------|

-------------------|-----------------|
--10--------10-9---|--7--------7-----|
-------------------|-----------------|
---9---------------|--7-----------7--|
--------0----------|-------0---------|
-------------------|-----------------|

-----------------|-----------------|
--7--------7-----|--2--------2-----|
-----------------|-----------------|
--7-----------7--|--2-----------2--|
-------0---------|-------0---------|
-----------------|-----------------|

-----------------|-----------------|
--3--------3-----|--2--------2-----|
-----------------|-----------------|
--4-----------4--|--2-----------2--|
-------0---------|-------0---------|
-----------------|-----------------|

-----------------|-----------------|
--2--------2-----|--9--------9-----|
-----------------|-----------------|
--2-----------2--|--9-----------9--|
-------0---------|-------0---------|
-----------------|-----------------|

-------------------|-----------------|
--10--------10-9---|--7--------7-----|
-------------------|-----------------|
---9---------------|--7-----------7--|
--------0----------|-------0---------|
-------------------|-----------------|

-----------------||---------------------|
--7--------7-----||---7----------7------|
-----------------||*--7----------7------|
--7-----------7--||*--------------------|
-------0---------||---------------------|
-----------------||---7-----7------7----|
  
--------------------|--------------------|
--7----------7------|--9----------9------|
--7----------7------|--9----------9------|
--------------------|--------------------|
--------------------|--------------------|
--7-----7------7----|--0-----0------0----|
  
-----------------------||------------------|
--10----------10-9-----||--7\--------------|
---9-----------9-9----*||--7\--------------|
----------------------*||------------------|
-----------------------||------------------|
---0-----0-------0-----||--7\--------------|

---------------|-----------------|
---------------|--9----9----9----|
---------------|--9----9----9----|
---------------|-----------------|
---------------|-----------------|
---------------|--0----0----0----|
  
-------------------||------------------|
--10----10----9----||---7----7----7----|
---9-----9----9----||*--7----7----7----|
-------------------||*-----------------|
-------------------||------------------|
---0-----0----0----||---7----7----7----|
 
-----------------|-----------------|
--7----7----7----|--9----9----9----|
--7----7----7----|--9----9----9----|
-----------------|-----------------|
-----------------|-----------------|
--7----7----7----|--0----0----0----|

--------------------||
--10----10----9-----||
---9-----9----9----*||
-------------------*||
--------------------||
---0-----0----0-----||

Glock before the outro:					 
------------------|
--12------10------|
------------------|
---9-------7------|
------------------|
------------------|
The chorus and outro sound good with chords too which are:
Bm, E, Esus
Also I plan on tabbing the rest of the glock in the song soon. I'll update this if I finish it.

#6 Mike

Mike

    A Common Whore At The Dime

  • Regulars
  • Pip
  • 59 posts
  • Gender:m
  • Location:UK

Posted 29 June 2008 - 05:46 AM

Very nicely done, thankyou.

#7 Elaine

Elaine

    A Common Whore At The Dime

  • Regulars
  • Pip
  • 67 posts
  • Gender:f
  • Location:St. Louis, MO

Posted 29 June 2008 - 08:58 PM

I <3 roger.

#8 Elaine

Elaine

    A Common Whore At The Dime

  • Regulars
  • Pip
  • 67 posts
  • Gender:f
  • Location:St. Louis, MO

Posted 29 June 2008 - 09:48 PM

I was wondering something. Question about this cord: 7th fret on 2nd, 3rd and 6th string. Would it be better to bar the whole thing, or use 2/3 fingers? I'm not really sure if its just my being bad at chords (I'm new) or if I'm not doing this the best way.

#9 Roger

Roger

    Bieber Believer

  • Regulars
  • PipPipPip
  • 486 posts
  • Gender:m
  • Location:Costa Mesa, CA

Posted 29 June 2008 - 10:05 PM

I use my middle, ring, and pinky finger for that chord. But you could also barre it if you wanted to, except for the ending.

#10 Mike

Mike

    A Common Whore At The Dime

  • Regulars
  • Pip
  • 59 posts
  • Gender:m
  • Location:UK

Posted 30 June 2008 - 01:36 PM

Also, instead of Bm, i think it's B/D

#11 Roger

Roger

    Bieber Believer

  • Regulars
  • PipPipPip
  • 486 posts
  • Gender:m
  • Location:Costa Mesa, CA

Posted 04 July 2008 - 01:28 PM

Yeah that's definitely a lot more accurate. Nice call.

#12 bethwallace

bethwallace

    n00b or lurker?

  • Members
  • 10 posts
  • Gender:f

Posted 04 July 2008 - 03:29 PM

awesome!
thanks!

#13 Morbix

Morbix

    n00b or lurker?

  • Members
  • 8 posts

Posted 14 September 2008 - 05:32 PM

Anyone think they can decipher the piano part for this song?

#14 spartian995

spartian995

    Plagued By Practical And A Mercenary Lust

  • Regulars
  • PipPip
  • 211 posts
  • Gender:m
  • Location:Northern Michigan

Posted 18 May 2014 - 08:27 PM

oh....day...gone
0-----0-----0----------

0-----0-----0----------
1-----2-----11---------
2-----4-----12---------
0-----0-----0----------
0-----0-----0----------


We'll..Sing
0-----0

0-----0
11---1
12---2
0-----2
0-----0
I think these sound nice for the chorus. Especially on acoustic, the opens give a nice full sound.

Edited by spartian995, 18 May 2014 - 08:29 PM.





1 user(s) are reading this topic

0 members, 1 guests, 0 anonymous users