Jump to content


- - - - -

Things That Hide AwayAnyone got it?


  • Please log in to reply
3 replies to this topic

#1 gordo865

gordo865

    A Common Whore At The Dime

  • Regulars
  • Pip
  • 61 posts
  • Gender:m

Posted 23 December 2010 - 02:46 AM

Anyone out there tab the green song yet?

#2 JohnnyLegend

JohnnyLegend

    A Common Whore At The Dime

  • Members
  • Pip
  • 27 posts
  • Gender:m
  • Location:Canada... yes, Canada!

Posted 30 March 2011 - 06:49 PM

Dude, I'm pretty sure I've matched the song note to note (or just about).

If I have time, I'll see what I can do.

#3 Kyle

Kyle

    The Priest

  • Regulars
  • PipPipPipPip
  • 521 posts
  • Gender:m
  • Location:Blacksburg, Va
  • Interests:Teaching inner-city kids the dangers of crumping.

Posted 16 April 2011 - 05:02 AM

Capo on 5

INTRO:

E||--------------------------------------------------------------------------|
B||--------1--------1--------1--------1--------1--------1--------1--------1--|
G||----0--------0--------0--------0--------0--------0--------0--------0------|
D||------2--------2--------2--------2--------2--------2--------2--------2----|
A||--3--------3--------3--------3--------3--------3--------3--------3--------|
E||--------------------------------------------------------------------------|

INTERLUDE:

E||--------------------------------------------------------------------------|
B||--------1--------1--------0--------0--------0--------0--------1--------0--|
G||----0--------0--------0--------0--------0--------0--------0--------0------|
D||------2--------2--------2--------2--------0--------0--------2--------0----|
A||--3--------3--------------------------------------------0-----------------|
E||--------------------0--------0--------3--------3-----------------3--------|

VERSE:

E||--------------------------------------------------------------------------|
B||--------1--------1--------1--------1--------1--------1--------1--------1--|
G||----0--------0--------0--------0--------2--------2--------2--------2------|
D||------2--------2--------2--------2--------0--------0--------0--------0----|
A||--3--------3--------3--------3--------3--------3--------3--------3--------|
E||--------------------------------------------------------------------------|

E||--------------------------------------------------------------------------|
B||--------------------------------------------0--------0--------0--------0--|
G||--------0--------0--------0--------0----0--------0--------0--------0------|
D||----3--------3--------3--------3----------2--------2--------2--------2----|
A||------2--------2--------2--------2----2--------2--------2--------2--------|
E||--3--------3--------3--------3--------------------------------------------|

E||--------------------------------------------------------------------------|
B||--------1--------1--------1--------1--------1--------1--------1--------1--|
G||----2--------2--------2--------2--------0--------0--------0--------0------|
D||------3--------3--------3--------3--------2--------2--------2--------2----|
A||--3--------3--------3--------3--------3--------3--------3--------3--------|
E||--------------------------------------------------------------------------|

E||--------------------------------------------------------------------------|
B||--------------------------------------------------------------------------|
G||--------0--------0-------0--------0---------------------------------------|
D||----3--------3-------3--------3-------------------------------------------|
A||------2--------2-------2--------2-----------------------------------------|
E||--3--------3-------3--------3---------------------------------------------|

BRIDGE:

E||--------------------------------------------------------------------------|
B||--------1--------1--------1--------1--------3--------3--------3--------3--|
G||----2--------2--------2--------2--------2--------2--------2--------2------|
D||------2--------2--------2--------2--------0--------0--------0--------0----|
A||--0--------0--------------------------------------------------------------|
E||--------------------3--------3--------2--------2--------2--------2--------|

E||--------------------------------------------------------------------------|
B||--------3--------3--------3--------3--------------------------------------|
G||----0--------0--------0--------0------------------------------------------|
D||------0--------0--------0--------0----------------------------------------|
A||--------------------------------------------------------------------------|
E||--3--------3--------3--------3--------------------------------------------|

CHORUS:

E||--------------------------------------------------------------------------|
B||--------1--------1--------1--------1--------------------------------------|
G||----2--------2--------2--------2------------0--------0--------0--------0--|
D||------3--------3--------3--------3------3--------3--------3--------3------|
A||--3--------3--------3--------3------------2--------2--------2--------2----|
E||------------------------------------3--------3--------3--------3----------|
                                      
E||--------------------------------------------------------------------------|
B||--------1--------1--------0--------3--------0--------0--------0--------0--|
G||----0--------0--------0--------0--------1--------1--------1--------1------|
D||------2--------2--------0--------0--------2--------2--------2--------2----|
A||--3--------3--------2--------2--------2--------2--------2--------2--------|
E||--------------------------------------------------------------------------|

E||--------------------------------------------------------------------------|
B||--------1--------1--------1--------1--------------------------------------|
G||----2--------2--------2--------2------------0--------0--------0--------0--|
D||------3--------3--------3--------3------3--------3--------3--------3------|
A||--3--------3--------3--------3------------2--------2--------2--------2----|
E||--------------------------------------3--------3--------3--------3--------|

OUTRO CHORDS:

C  Em  G  Am G


ORDER:

Intro
Interlude x2
Verse
Interlude x2
Verse
Bridge
Chorus
Interlude x4
Chorus
Outro Chords x4

There's one chord in the chorus I'm iffy on, but everything else should be right.

gooby pls

#4 Roger

Roger

    Bieber Believer

  • Regulars
  • PipPipPip
  • 486 posts
  • Gender:m
  • Location:Costa Mesa, CA

Posted 16 April 2011 - 11:09 AM

Awesome job, that's how I play it too. I was going to tab it out but I'm glad you got to type out all those numbers and dashes instead.




0 user(s) are reading this topic

0 members, 0 guests, 0 anonymous users