Jump to content


- - - - -

The Inquiry of Ms. Terri


  • Please log in to reply
1 reply to this topic

#1 alec

alec

    n00b or lurker?

  • Members
  • 3 posts

Posted 19 March 2009 - 12:12 AM

does anyone have a tab of the part that comes in at 0:45?

and the whole song for that matter

thanks alot

#2 Vincent

Vincent

    Fell In Another Hole FORTHEKNIFEFORTHEKNIFE!!!

  • Regulars
  • PipPipPip
  • 399 posts
  • Gender:m
  • Location:Pittsburgh, PA

Posted 20 March 2009 - 06:29 PM

Okay, I used some live videos to clarify. I haven't figured out the chord progression for the second verse // bridge // outro, but since it's the same thing, you'll have the rest of the song once someone figures out that on progression.

[b]Intro + Verse 1 R. Guitar[/b]

Drop-D : DADGBE

PATTERN A
    "A home removed..." (0:00-0:32)
E: ------------------------------------------------------
B: ------------------------------------------------------
G: --7--7-5-7-----7--7-5-7-----7--7-5-7-----7--7-5-7----- (x6 for intro, then x2 for verse)
D: -----------5------------5------------5------------5---
A: ------------------------------------------------------
D: ------------------------------------------------------

PATTERN B
 "...right here..." (0:33-0:38)
E: ----------------------------------------------------------------------
B: ----------------------------------------------------------------------
G: --11--11-9-11------11--11-9-11------11--11-9-11------11--11-9-11------ (x1)
D: --------------10---------------10---------------10---------------10---
A: ----------------------------------------------------------------------
D: ----------------------------------------------------------------------

PATTERN C 
 "...here..." (0:38-0:43)
E: ---------------------------------------------------------------------------------------
B: ---------------------------------------------------------------------------------------
G: --12---12----12---------12---12----12---------12---12----12---------12---12----12------ (x1)
D: ----------13----10--------------13----10--------------13----10---------------13----10--
A: ---------------------------------------------------------------------------------------
D: ---------------------------------------------------------------------------------------

[b]Verse 1 Lead Guitar[/b]

Drop-D : DADGBE

Key:
/  - slide up to fret
\  - slide down to fret
^  - bend
h  - hammer-on
p  - pull off
~  - let ring/sustain
() - fret in parenthesis signifies the ringing already ringing note...in this case you will sliding/bending this already struck note

Guitar 2 plays this over rhythm PATTERN A

    "The Priest..." (0:44-0:55)
E: ------------------------------------13-------------------------------
B: ------13/15[b]~[/b]--13[b]~[/b]----13-------13/15----13[b]~[/b]--(13)/15[b]~[/b]-----------------
G: --12--------------15----15\12---------------------------------------- (x2)
D: ---------------------------------------------------------------------
A: ---------------------------------------------------------------------
D: ---------------------------------------------------------------------


Guitar 2 plays this over rhythm PATTERN B

          (0:55-1:00)
E: ------------------------------------------
B: --13/15[b]~[/b]----13/15[b]~[/b]----13/15[b]~[/b]----13/15[b]~[/b]----
G: ------------------------- ---------------- (x1)
D: ------------------------------------------
A: ------------------------------------------
D: ------------------------------------------


Guitar 2 plays this over rhythm PATTERN C

E: ---------------------------------------------------
B: --13p11-------13p11--------13p11[b]~[/b]-(11)--11~--------
G: --------12----------12-------------12[b]~[/b]-(12)^(13)[b]~[/b]--
D: --------------------------------------------------- (x1)
A: ---------------------------------------------------
D: ---------------------------------------------------


[b]Chorus[/b]

Drop-D : DADGBE

Key:
\\ - Slide from fret to nut con mucho fuerte.


    "Touch,       taste,       feel  it     ripping  me  down!"
E: --------------------------------------------------------------------------------------
B: ------------------------------------------------------4-------------------------------
G: ------------------------------------------------------5-------------------------------
D: --5\\----------5\\----------5\\----------5\\----------5-------------------------------
A: --5\\----------5\\----------5\\----------5\\----------3------3-1-0-1-3-4-5-3-1-0------
D: --5\\---5--3---5\\---5--3---5\\---5--3---5\\---5--3------------------------------5-4--
    
    "Reprise       two times,       the Dime,         burn it to the ground..."
E: ---------------------------------------------------------------------------------------------------
G: ---------------------------------------------------------------4-----------------------------------
G: ----3\\-------------3\\-----------3--3\\-----------3\\---------5-----------------------------------
D: --5--------------5---------------------------------------------5-----------------------------------
A: --5--------------5---------------------------------------------3------3-1-0-1-3-4-5-3-1-0----------
D: --5-------5--3---5---------5--3------------5--3--------5--3-------------------------------5-4-5\\--






1 user(s) are reading this topic

0 members, 1 guests, 0 anonymous users