Jump to content


- - - - -

The Lake and the RiverRequest.


  • Please log in to reply
21 replies to this topic

#1 Infidel

Infidel

    Fell In Another Hole FORTHEKNIFEFORTHEKNIFE!!!

  • Regulars
  • PipPipPip
  • 349 posts
  • Gender:m

Posted 26 August 2008 - 04:12 PM

I was interested in this song, namely the outro/ending, so if anyone has the tab/can tab it, and will post it, I will give you my thanks.

#2 SpaceYeti

SpaceYeti

    A Common Whore At The Dime

  • Members
  • Pip
  • 33 posts
  • Gender:m
  • Location:Chicago
  • Interests:Hobos

Posted 11 September 2008 - 09:49 AM

The outro? The acoustic thing with all of the vocal harmonies?

e--------------------------------------------------------------------------
B--------------------------------------------------------------------------
G--------------------------------------------------------------------------
D-7-XXXX-7-XXXX-7-XXXX-7-5~-7-XXXX-7-XXXX-7-XXXX---------
A-7-XXXX-7-XXXX-7-XXXX-7-5~-7-XXXX-7-XXXX-7-XXXX-5p3----
E-5-XXXX-5-XXXX-5-XXXX-5-3~-5-XXXX-5-XXXX-5-XXXX-----8p5

Thats basically it. The last couple of notes are changeed up, and theres a second guitar doing little lead runs.

Just learn the Am Pentatonic scale and you should be set.
For cereal.

#3 axelthesot

axelthesot

    The Priest

  • Regulars
  • PipPipPipPip
  • 523 posts
  • Gender:m
  • Location:Youngstown

Posted 11 September 2008 - 01:44 PM

I tabbed out the lead riff in the intro....

Too bad I gave up tabbing for tapping. Booty and that shoe dance that is.
--------------------------------
--------------------------------

#4 Infidel

Infidel

    Fell In Another Hole FORTHEKNIFEFORTHEKNIFE!!!

  • Regulars
  • PipPipPip
  • 349 posts
  • Gender:m

Posted 13 September 2008 - 04:43 PM

Thanks. I suck at tabbing things by ear, the only way I figure stuff out on my own is if I somehow stumble upon it by accident (I've figured out a few things like that, surprisingly).

#5 Roger

Roger

    Bieber Believer

  • Regulars
  • PipPipPip
  • 486 posts
  • Gender:m
  • Location:Costa Mesa, CA

Posted 13 September 2008 - 05:39 PM

E||--------------------------|		  
B||--------------------------|
G||--2--x--x--x--2--x--x--x--|
D||--2--x--x--x--2--x--x--x--|
A||--0--x--x--x--0--x--x--x--|
E||--------------------------|	
-------------------------|
-------------------------|
--2--x--x--x--2----------|
--2--x--x--x--2----------|
--0--x--x--x--0----------|
-----------------3b------|
--------------------------|
--------------------------|
--2--x--x--x--2--x--x--x--|
--2--x--x--x--2--x--x--x--|
--0--x--x--x--0--x--x--x--|
--------------------------|	  
---------------------------||
---------------------------||
--2--x--x--x---------------||
--2--x--x--x---------------||
--0--x--x--x--3p--0--------||
---------------------3b----||


#6 sao

sao

    Fell In Another Hole FORTHEKNIFEFORTHEKNIFE!!!

  • Regulars
  • PipPipPip
  • 322 posts
  • Gender:m
  • Location:Boston

Posted 13 September 2008 - 07:10 PM

That one makes more sense.

#7 Infidel

Infidel

    Fell In Another Hole FORTHEKNIFEFORTHEKNIFE!!!

  • Regulars
  • PipPipPip
  • 349 posts
  • Gender:m

Posted 14 September 2008 - 11:43 AM

^

The first one posted sounded way off, but the one Roger put is a lot better. Thanks :)

#8 cash

cash

    n00b or lurker?

  • Members
  • 23 posts
  • Gender:m
  • Location:Lowell Ma

Posted 29 September 2008 - 02:37 PM

I'm currently getting the whole intro and i should have the whole song by late tomarrow

#9 Infidel

Infidel

    Fell In Another Hole FORTHEKNIFEFORTHEKNIFE!!!

  • Regulars
  • PipPipPip
  • 349 posts
  • Gender:m

Posted 29 September 2008 - 04:27 PM

May I offer thee some secks, perchance? (Y'know, as payment for the tab. Gotta "give" a little to "take" a little, if you catch my meaning.)

#10 cash

cash

    n00b or lurker?

  • Members
  • 23 posts
  • Gender:m
  • Location:Lowell Ma

Posted 29 September 2008 - 06:22 PM

it's a very delicious offer but i feel like i would be ripping you off

#11 Infidel

Infidel

    Fell In Another Hole FORTHEKNIFEFORTHEKNIFE!!!

  • Regulars
  • PipPipPip
  • 349 posts
  • Gender:m

Posted 30 September 2008 - 05:04 PM

Fair enough. Perchance I shall need to offer it so some other lad. G'day.

#12 theeuphonyofsilence

theeuphonyofsilence

    Plagued By Practical And A Mercenary Lust

  • Regulars
  • PipPip
  • 214 posts
  • Gender:m
  • Location:Boston
  • Interests:Peace, Music, Love, and Laughter

Posted 24 October 2008 - 06:51 PM

Intro

Slide into the last notes of the phrases to be more exact

E|--------------------------------------------------------------------------|
B|---------11--9--8---------9--8--6--------8--6-----------------------------|
G|------8------------10--8-----------8--7--------8--7--5--7-----5-----------|
D|--10-------------------------------------------------------8-----8--6--5--|
A|--------------------------------------------------------------------------|
E|--------------------------------------------------------------------------|








#13 Vincent

Vincent

    Fell In Another Hole FORTHEKNIFEFORTHEKNIFE!!!

  • Regulars
  • PipPipPip
  • 399 posts
  • Gender:m
  • Location:Pittsburgh, PA

Posted 25 October 2008 - 05:14 PM

You missed the first note in the first arpeggio. It should be:

View Posttheeuphonyofsilence, on Oct 24 2008, 07:51 PM, said:

Intro

Slide into the last notes of the phrases to be more exact

e: ---------------------------------------------------------------------------------
b: -----------11--9--8---------9--8--6--------8--6----------------------------------
g: --------8------------10--8-----------8--7--------8--7--5--7---5------------------
d: ----10------------------------------------------------------8---8--6--5----------
a: -11------------------------------------------------------------------------------
e: ---------------------------------------------------------------------------------








#14 Infidel

Infidel

    Fell In Another Hole FORTHEKNIFEFORTHEKNIFE!!!

  • Regulars
  • PipPipPip
  • 349 posts
  • Gender:m

Posted 03 November 2008 - 04:22 PM

Hot damn. Off to go play this.

#15 Vincent

Vincent

    Fell In Another Hole FORTHEKNIFEFORTHEKNIFE!!!

  • Regulars
  • PipPipPip
  • 399 posts
  • Gender:m
  • Location:Pittsburgh, PA

Posted 03 November 2008 - 06:37 PM

Erick plays it a little differently live. Same notes, but with some slides, and some different fingerings. I'll post that version in a couple days when I have time to tab it out.

#16 Infidel

Infidel

    Fell In Another Hole FORTHEKNIFEFORTHEKNIFE!!!

  • Regulars
  • PipPipPip
  • 349 posts
  • Gender:m

Posted 05 November 2008 - 04:47 PM

Hawt.

#17 Vincent

Vincent

    Fell In Another Hole FORTHEKNIFEFORTHEKNIFE!!!

  • Regulars
  • PipPipPip
  • 399 posts
  • Gender:m
  • Location:Pittsburgh, PA

Posted 06 November 2008 - 01:10 AM

Okay, as promised, this is how they do it live. I've got Andy's rhythm part too.


Intro

---

/ - slide up to fret
\ - slide down to fret
h - hammer-on to fret
p - pull-off to fret

---

Andy Rhythm:

e: ------------------------------
b: -----------------11-----------
g: -12-10---12-10--------12-10---  (repeat as necessary, rhythm not exact)
d: ------------------------------
a: -11-11---11-11---11---11-11---
e: ------------------------------

Erick Lead:

e: -------------------------------------------------------------------------------------
b: ------------11--9--6/8~~---------9-8---------------8---------------------------------
g: ---------8------------------10p8-----8/10~~----8\7---10-----8\7----------------------
d: -----10---------------------------------------------------------10/12-8h10p8---------
a: -11--------------------------------------------------------------------------11p10---
e: -------------------------------------------------------------------------------------




I used these two videos for reference:



You'll want to use your neck pickup for both parts.

Add a little slap-back delay for Erick's lead. Be quick on the last little couple slides/hammer-on/pull-offs. You're going to want to make it sound as fluid as possible. Start the arpeggio with your pinky, then you'll be able to reach that first slide with your pointer finger. See the first video listed for more info on fingering. It has a really good view of Erick's hand. Once you get down this version, you'll realize that its much easier due to it all being in the same area; it doesn't "travel" as much as our other version. I believe this is exactly how he does it.

If you are having trouble fingering Andy's part, make sure you are using your middle finger on the 11 of the A string (G#), pointer finger on the 10 of the G string (F), pinky on the 12 of the G string (G), and your ring finger on the 11 of the B string (A#). Then all you have to do is toggle your pinky to access the three rhythm shapes.


---

I might have more for this song in the near future. Just trying to figure out some of the chord shapes. The riffs will come pretty easily.

#18 Infidel

Infidel

    Fell In Another Hole FORTHEKNIFEFORTHEKNIFE!!!

  • Regulars
  • PipPipPip
  • 349 posts
  • Gender:m

Posted 07 November 2008 - 04:49 PM

Thanks you.

#19 Vincent

Vincent

    Fell In Another Hole FORTHEKNIFEFORTHEKNIFE!!!

  • Regulars
  • PipPipPip
  • 399 posts
  • Gender:m
  • Location:Pittsburgh, PA

Posted 07 November 2008 - 06:14 PM

No problem, brosef. Enjoy.

#20 Cal

Cal

    i can't control my niggaz, and my niggaz can't control m

  • Regulars
  • PipPipPipPipPip
  • 694 posts
  • Gender:m
  • Location:Lapeer, Michigan.
  • Interests:crying and listening to bthats

Posted 04 March 2012 - 05:27 PM

Currently tabbing this out. At the first verse.

EDIT. Took forever. Bass and Drums aren't perfect (kinda skipped bass, sue me).
TabIt tab.

http://www.mediafire...u2h0v7tu6b61j8m




0 user(s) are reading this topic

0 members, 0 guests, 0 anonymous users