Jump to content


- - - - -

Shame


  • Please log in to reply
1 reply to this topic

#1 Captain

Captain

    Maybe we're just never meant to know why

  • Regulars
  • PipPip
  • 257 posts
  • Gender:m
  • Location:Connectonnecticut
  • Interests:Doing stuff poorly but having fun doing it

Posted 09 May 2013 - 06:14 PM

I didn't see anything for Shame when I looked, so I figured I'd put up what I've got until someone who knows what they're doing can come along and fix it.

Quote

For the intro guitar part and the first half of the first verse, I play:
e|-----------------------------------------------------------------------------------------------------
B|----11-------11---------10--------10---------14--------14---------13--------13--------------
G|--------12--------12---------12--------12---------15--------15---------14--------14--------
D|-----------------------------------------------------------------------------------------------------
A|-----------------------------------------------------------------------------------------------------
E|-----------------------------------------------------------------------------------------------------

And then:
e|-----------------------------------------------------------------------------------------------------
B|-----------------------------------------------------------------------------------------------------
G|-----------------------------------------------------------------------------------------------------
D|------8--------8--------7---------7--------11--------11--------10--------10-------------------
A|----------10------10-------10-------10--------13--------13--------12--------12--------------
E|------------------------------------------------------------------------------------------------------

Also, I believe "You're not leaving anything back in this world for us" is these two chords:

e|-----------------------
B|------------------------
G|--------------5--------
D|-----5--------5--------
A|-----5--------3--------
E|-----3------------------

Forgive me if I didn't format this right, I've never done it before.
I will not be a parasite.

#2 Atticus

Atticus

    The One Who Didn't Fold

  • Regulars
  • Pip
  • 143 posts
  • Gender:m
  • Location:New York/Montreal

Posted 03 June 2013 - 02:47 AM

Intro:
Gm - Gsus2 - C#MinDim5 - Cmin
x2
Verse:

Gm Gsus2
You had them fooled,
C#MinDim5 Cm
And I'll admit you had me too,
Gm Gsus2
But you're awfully chique,
C#MinDim5 Cm F
To act so clean, I...

Gm Gsus2
Can sense a shake,
C#MinDim5 Cm
An oscillation in your
Gm Gsus2
voice. The closet's full,
C#MinDim5 Cm
But the door's swinging open,

Chorus:
Gm
Shame, that you couldn't suffer the
Cm
blame, cause now it's the only
A7 Dmaj Bb Eb
way that you could find the fix, to mend.

G#maj7


Verse 2:
Exact same thing as verse 1

Chorus 2:

Gm
Shame, that you couldn't suffer the
Cm
blame, cause now it's the only
A7 F
way that you could find the fix, to mend this

Gm
Shame, that you couldn't suffer the
Cm
blame, cause now it's the only
A7 Dmaj Bb Eb G#
way that you could find the fix, to mend these lies

Bridge:

Gmin - C - Cmin
x2
Gmin C Cm
You're not leaving anything back in this world for
Gmin C Cm
us, so don't go taking anything back from this world but,


Eb
Shame, that you couldn't suffer the
Cm
blame, cause now it's the only
A7 Dmaj Bb Eb
way that you could find the fix, to mend

G#
these lies



Weird chords:
Gsus2 - G, A, D
C#MinDim5 - C# - E - G
"Sometimes it's hard to know what's real when you're not"

-Act V, "The Revival"




0 user(s) are reading this topic

0 members, 0 guests, 0 anonymous users