Jump to content


- - - - -

In Cauda Venenum


  • Please log in to reply
2 replies to this topic

#1 steinface

steinface

    A Common Whore At The Dime

  • Regulars
  • Pip
  • 65 posts
  • Gender:m

Posted 07 August 2009 - 10:45 PM

IN CAUDA VENENUM
tabbed by steinface

e|-111-------------------------111----------------------------------------------
B|-333-------------------------333----------------------------------------------
G|-222-------------------------222---------2-1----------------------------------
D|-000-0-3---0-3---0-3---0-3---000-0-3---0--------0-0-000---0-0-000-------------
A|--------4-----4-----4-----4---------4-----------------------------------------
E|------------------------------------------------------------------------------

Dm
We're biting our tongues, (biding our time)
				A
an apparition; awoken
Bb						 A
with an urge to own and occupy.
Who ever said this was easy?

Dm						 A
A majesty's massacre floods the fields of red
Bb								   A
Blood on your body naturally rushes the blood to your head

AA  AA  AAA  BbBb BbBb  AAAA


Dm			 E			Bb			F
Now with hands aligned these arms move tonight.
A
And we cry "no we can not allow this."
Dm
"No, this is terrible." 
Bb									  A
With ideals we're idle as they lust for more.
Bb							A
But oh, if we settle the score 

We've never been so excited to see you before
e|-----------------------------------------------
B|-----------------------------------------------
G|-5-7-------------------------------------------
D|-----8-7-5-------------------------------------
A|------------8-7-5------------------------------
E|-------------------8-6-5-5---------------------
 

Dm								A
In the cradle we are helpless, but on our feet we are fatal.
Bb								 A
How we evolve and grow into twisted beasts with a desire for disorder.
Dm							A
OH! What a terrible, terrible game they play.
Bb							A
Replacing the pawn for a body and the players; politicians who say what they need to say.

Gm Bb A
Gm Bb A
Gm Bb A

AA AA AAA  BbBb BbBb GmGmGmGm
FF FF FFF  BbBb BbBb AAAA

notes (quiet trumpet part): D Db C B Bb A


Dm			 E			Bb			F
Now with hands aligned these arms move tonight.

Dm			 E			Bb			F
Here with abrasive lies, pain in plain sight.
A
And we cry "no we can not allow this."
Dm
"No, this is terrible." 
Bb									  A
With ideals we're idle as they lust for more.
Bb							A
But oh, if we settle the score 

We've never been so excited to see you before
e|-----------------------------------------------
B|-----------------------------------------------
G|-5-7-------------------------------------------
D|-----8-7-5-------------------------------------
A|------------8-7-5------------------------------
E|-------------------8-6-5-5---------------------





F					  Gm			 C7
Oh when I think about your smile
F					  Gm			 C7
Oh when I think about your eyes
F					  Gm			 C7
Oh when I dream about your eyes
Bbm7
travel all this way just to find love

F					  Gm			 C7


#2 Roger

Roger

    Bieber Believer

  • Regulars
  • PipPipPip
  • 486 posts
  • Gender:m
  • Location:Costa Mesa, CA

Posted 08 August 2009 - 02:53 AM

Nice, for some reason I could not get at this one.

#3 TalasJosh

TalasJosh

    n00b or lurker?

  • Members
  • 1 posts

Posted 18 February 2018 - 04:36 PM

I actually have an gp tab on ultimate guitar for this. Not sure if it's accurate, but I think it could be close.
https://tabs.ultimat...tar_pro_1736253




0 user(s) are reading this topic

0 members, 0 guests, 0 anonymous users