Jump to content


- - - - -

Grounds for Divorce - Elbow (Cover by Casey)Searching for a tab

tabs youtube

  • Please log in to reply
1 reply to this topic

#1 theCrypticClientele

theCrypticClientele

    n00b or lurker?

  • Members
  • 1 posts

Posted 20 August 2014 - 04:06 PM

Hey guys, I'm trying to work out Casey's version of Elbow's Grounds for Divorce. I really like his guitar work but it's kind of hard to tell what he's playing all the time, as the camera moves around. My ear's also not as good as it used to be. Has anyone tabbed this out? Couldn't find anything in the search.

Here's the video:

#2 theryan

theryan

    A Common Whore At The Dime

  • Members
  • Pip
  • 42 posts
  • Gender:m
  • Location:Arizona
  • Interests:music, space, rocks, space-rocks, old wooden ships.

Posted 21 August 2014 - 11:31 PM

Here ya go:

View PosttheCrypticClientele, on 20 August 2014 - 04:06 PM, said:

Tuning: drop D

Intro
e|---------------------------|
B|--3-3-3-3------------------|
G|--2-2-2-2------------------|
D|--3-0-3-0------------------|
A|---------------------------|
D|---------------------------|

1st part of verse
Add the pull-offs here to taste
e|---------------------------|
B|--3-3-3-3----3-------------|
G|--2-2-2-2----2-------------|
D|--0-0-0-3p0--0-------------|
A|--0-0-0-0----3p0-----------|
D|--0-0-0-0----0-------------|

“Woahooh oh oh oh oh oh oh woah oh waaahh”
e|---------------------------|
B|--3-3-3-----------------3--|
G|--2-2-2-2-2-2-2-2-2-2-2-2--|
D|--0-3-0-0-0-0-0-0-0-0-0-0--|
A|--------3-0-0-0-0-0-0-0-0--|
D|------------5-3-5---5-0-0--|


Bridge (“there’s a whole in my neighborhood”)
e|--3-----0----3-------------|
B|--3-----1----3-------------|
G|--0-----0----0-------------|
D|--0-----2----x-------------|
A|--1-----3----5-------------|
D|-------------5-------------|

cool riff
e|-----------------------------------|
B|--3-3-3-----------3-3------------3-|
G|--2-2-2-----------2-2------------2-|
D|--0-0-0-5/7-5-3-0-0-0--5/7-5-3-0-0-|
A|--0-0-0-----------0-3------------0-|
D|--0-0-0-----------0-0------------0-|

“Monday’s for drinkin’ to the seldom seen kid”
e|----------------------------------------|
B|--1-------3-3-3-3-3-3-------------------|
G|--0-------2-2-2-2-2-2-------------------|
D|--2-------0-0-0-0-0-0-------------------|
A|--3-------0-0-0-0-0-0---0---------------|
D|----------0-0-3-0-3-0---3-5-5b-3-5b-3-0-|


And finally there’s that little build up thing he does
e|-------------|
B|-------------|
G|--0-0-0-0----|
D|--0-0-0-0----|
A|--1-0-1-0----|
D|-------------|

I believe all of the chords and riffs are there, although it's not formatted per the arrangement of the song.

edit: I meant to make it hidden instead of quote, but I don't know how. help?





Also tagged with tabs, youtube

1 user(s) are reading this topic

0 members, 1 guests, 0 anonymous users