Jump to content


- - - - -

Red Hands


  • Please log in to reply
No replies to this topic

#1 Scott

Scott

    Stapp

  • Mod
  • PipPipPipPipPipPipPipPipPipPipPipPipPipPipPipPipPip
  • 4,097 posts
  • Gender:m
  • Location:Florida

Posted 27 January 2013 - 10:05 AM

no red hands tabs? Here's the bass guitar I posted on UG forever ago

Tuning: Standard

Verse (00:41)
G|----------------------------------------------------------------------|
D|-3-3------------0-0---------------------------------------------------|
A|-------------------------0~-------------------------------------------| x2
E|-----1---11-1--1-----33~----------------------------------------------|

G|----------------------------------------------------------------------|
D|----------------2-2---------------------------------------------------|
A|--3-3---33-3---3------------------------------------------------------| x2
E|-------------------00~-3~---------------------------------------------|

G|----------------------------------------------------------------------|
D|-3-3------------0-0---------------------------------------------------|
A|-------------------------0~-------------------------------------------|
E|-----1---11-1--1-----33~----------------------------------------------|

G|----------------------------------------------------------------------|
D|-3-3------------0-0---------------------------------------------------|
A|----------------------------------------------------------------------|
E|-----1---11-1--1-----33~----------------------------------------------|

Bridge (1:22)
G|----------------------------------------------------------------------|
D|----------------------------------------------------------------------|
A|-0~---00~---3~---33~--------------------------------------------------|
E|-----------------------1~---11~---3~---33~----------------------------|

G|-----------------------------------------------0-0-0-0----------------|
D|-----------------------0-0-0-0-2-2-2-2-3-3-3-3------------------------|
A|-0-0--00~---3~---33~--------------------------------------------------|
E|----------------------------------------------------------------------|

Chorus (1:49)
G|-------------------------------|--------------------------------------|
D|------------------222-2--222-2-|------------------222-2--2------------|
A|-333-3-333-3-333---------------|-333-3-333-3-333----------------------|
E|-------------------------------|--------------------------------------|

Verse (2:03)
G|----------------------------------------------------------------------|
D|-------------2-2----------------------2-2-----------------------------|
A|-3-3--33-3--3-------------3-3--33-3--3--------------------------------|
E|-----------------00~--3~-------------------00~--3~--------------------|

G|----------------------------------------------------------------------|
D|-------------0-0-----------------------0-0----------------------------|
A|----------------------------------------------------------------------|
E|-1-1--11-1--1-----33~--5~--1-1--11-1--1-----33~-----------------------|

Bridge (2:30)

G|----------------------------------------------------------------------|
D|----------------------------------------------------------------------|
A|-0000000000000000-3333333333333333------------------------------------|
E|-----------------------------------1111111111111111-3333333333333333--|

G|----------------------------------------------------------00000000----|
D|-------------------------------00000000-22222222-33333333-------------|
A|--000000/12~--3333333333333333----------------------------------------|
E|----------------------------------------------------------------------|

Chorus (2:58)

Rest

Bridge (3:12)
G|-------------------00000000----------| |---|
D|----------22222222----------00000000-| |---|
A|-33333333----------------------------|x4|-3~|
E|-------------------------------------| |---|

Outro (3:53)
G|------------------------------------|
D|-3333333333333333----------22222222-|
A|------------------33333333----------| x4
E|------------------------------------|

(4:20)
G|----------00000000-22222222----------|
D|-33333333-------------------00000000-|
A|-------------------------------------|
E|-------------------------------------|

G|------------------------------------|
D|-3333333333333333----------22222222-|
A|------------------33333333----------| x3
E|------------------------------------|

G|----------00000000-22222222----------|
D|-33333333-------------------00000000-|
A|-------------------------------------|
E|-------------------------------------|

G|------------------------------------|
D|-3333333333333333----------22222222-|
A|------------------33333333----------| x3
E|------------------------------------|

G|----------00000000-22222222----------|
D|-33333333-------------------00000000-|
A|-------------------------------------|
E|-------------------------------------|

G|------------------------------------|
D|-3333333333333333----------22222222-|
A|------------------33333333----------|
E|------------------------------------|

(5:29)
G|------|
D|-3~---|
A|------|
E|------|

(5:36)
G|-------|
D|-3~----|
A|-------|
E|-------|

(5:39)
G|--------------------|
D|-33-33-33--333------|
A|--------------------|
E|--------------------|





1 user(s) are reading this topic

0 members, 1 guests, 0 anonymous users