Jump to content


- - - - -

NON-ALBUM SONGS


  • Please log in to reply
6 replies to this topic

#1 steinface

steinface

    A Common Whore At The Dime

  • Regulars
  • Pip
  • 65 posts
  • Gender:m

Posted 26 June 2009 - 02:00 PM

BRAZIL 
tabbed by steinface


Riff 1
e|------0-0-------------------
B|---2--------2-2-0-0--0------
G|-------------------2--------
D|2---------------------------
A|----------------------------
E|----------------------------
Amaj7	  
Bm		  
F*   
  

e|---------------------------------
B|-2------------2------------2----
G|----1-------------1--------------
D|-------4---2---------4---2------
A|---------------------------------
E|---------------------------------

Amaj7  Dmaj7  Amaj7  Dmmaj7



Riff 2
e|--------------------|-----------
B|--------------------|-----------
G|2-2-2---2-2-2-2-2---|--2-2-2-2-
D|2-3-4---2-3-4-4-3---|--2-3-4-2-
A|--------------------|-----------
E|--------------------|-----------
					  ^last time

Amaj7			
Brazil where hearts were entertaining 
Bm
June, We stood beneath an amber 
F*
moon And softly whispered “someday 
Amaj7
soon. . .”
Dmaj			  
We kissed and 


Amaj7   G#
clung together,
F# G F# G
Then tomorrow was another 
F# G F# G 
day the morning found us miles 
F# G F# G
away, with still a million things to 

e|----------------------------
B|-3-3-3-3--------------------
G|-0-1-2-1--------------------
D|-0-0-0-0--------------------
A|-2-2-2-2--------------------
E|----------------------------
say

D
Now when twilight dims the sky
A
above, recalling thrills of our 
Bm7
love, there’s one thing I’m certain 

Amaj7
of;
Dmaj7 
return I 
Amaj7
will to
Dmaj7
old 
(Riff 2)
Brazil



 F*
e|-1---------------------------
B|-0---------------------------
G|-2---------------------------
D|-3---------------------------
A|-----------------------------
E|-----------------------------



PAYCHECK
tabbed by Roger


Intro/Main Riff
E||--------------------------------------------------|
B||--------------------------------------------------|
G||--------------------------------------------------|
D||--6--6--4--4--6--6--4--4--7--7--6--6--4--4--2--2--|
A||--0--0--0--0--0--0--0--0--0--0--0--0--0--0--0--0--|
E||--------------------------------------------------|

Verse:
I couldn't stress enough...
D, Main Riff

Believe me, I know...
Bm, F#m, E

Repeat

Prechorus/Chorus:

But the pendulum... ways...
D, Dm

Easier to me
A, Asus2, A

You got a papercut... Paycheck...
D, Dm

Paid... laid... Step...
A, F#m, E

Main Riff
Verse
Prechorus/Chorus

Oooohhhoohohoohohooh...
D, Dm, A
D, Dm

Bridge:
It's just a matter of time
Bm, F#m (x3)
E

Main Riff
Verse

End on A

Just as a side note, I like replacing the Asus2 with a Amaj7 but I think the Asus2 is more accurate.


UNISON
tabbed by steinface

***capo on 3rd fret***

e|----------------------------
B|----------------------------
G|----------------------------
D|----------------------------
A|----------0---0-------------
E|--3-3---3-------2-----------

		
e|--------------|--------------|--------------
B|--------0-----|--------0-----|-------0------
G|--2-2-2---2---|--2-2-2---2---|-2-2-2---2---- play 
D|--0-0-0-------|--0-0-0-------|-0-0-0-------- twice
A|--x-x-x-------|--0-0-0-------|-0-0-0-------- each
E|--3-3-3-------|--------------|-2-2-2--------
   Gadd2	   Aadd2/add4	   D6  




I'm born stubborn me
Will always be
Before you count
One two three

I will have grown my own private branch
Of this tree
You gardener you
You discipliner
Domestically
I can obey all of your rules
And still be, be

I never thought I would compromise

Let's unite tonight
We shouldn't fight
Embrace you tight
Let's unite tonight

I thrive best hermit style
With a beard and a pipe
And a parrot on each side
But now I can't do this without you

I never thought I would compromise

Let's unite tonight
We shouldn't fight
Embrace you tight
Let's unite tonight

One hand it loves the other
So much on me

Let's unite tonight
We shouldn't fight
Embrace you tight
Let's unite tonight

THE WAR OF ALL AGAINST ALL
tabbed by steinface

I'm not gonna tab out the exact pattern from the beginning. Its picking around an
  Em7 and a Cmaj7
e|-3---------3------------------
B|-0---------0------------------
G|-0---------0------------------
D|-2---------2------------------
A|-2---------3------------------
E|-0----------------------------

When picking the Cmaj7 in the beginning, keep the same chord shape, but change the bass notes accordingly
  Gbass	  Dbass
e|-3---------3------------------
B|-0---------0------------------
G|-0---------0------------------
D|-2---------0------------------
A|------------------------------
E|-3----------------------------



Em7					 Cmaj7
Look alive, gentlemen
				   Gbass						   Cmaj7				   Dbass
Or fake your deaths; your wounds undressed beneath your costumes.
Em7						Cmaj7
Some are so well rehearsed
					Gbass				  Cmaj7			   Dbass
For hearses it hurts, always the first to wave the white flag
Em7				  Cmaj7
And barricade themselves
			   Gbass			 Cmaj7		Dbass
In false pretenses, fox holed in trenches.
Em7
Forged casualties with casual pleas,
							Cmaj7   Gbass  Cmaj7  Dbass
Dying to please the enemy

					 Em7				Cmaj7 Gbass Cmaj7 Dbass
We die to stay alive, we kill to survive


Em									 Cadd2
We are the corps of corpses, we are up in arms and armed
Am								D
Bring all the king's horses and all the king's men


Em
Push on, plod on, these legs like pistons pumping forward motion.
C					 Am D
Convalescent men in uniform.
Em
We have fallen to friendly fire, shrapnel freckles our spine.
C					 Am  D
Still our feet fall one by one.


Em										Cadd2
We are the corps of corpses, we are up in arms and armed
Am							  D
Bring all the king's horses and all the king's men
Em															   
We were led to lead lovers, while marching to the beat.
Cadd2						Am		D
We were led to lead lovers, we kissed so well we kissed so well


Em
In morse code,
			   Cadd2
"This is our revolution!
Em
To arms! To arms!
			  Cadd2
This is a revolution!"
Em
We are the corps of corpses,
					Cadd2
We are up in arms and armed.


End on Em


#2 Grizzly Bear Arcade

Grizzly Bear Arcade

    Awoke Alone

  • Regulars
  • PipPipPipPipPipPipPipPip
  • 1,275 posts
  • Gender:m
  • Location:Ida fuckin Ho
  • Interests:Fuckin' shit and stuff.

Posted 26 June 2009 - 10:49 PM

I like where this thread is going and I like your Sifl & Olly pic.
The night keeps looking our way.

#3 steinface

steinface

    A Common Whore At The Dime

  • Regulars
  • Pip
  • 65 posts
  • Gender:m

Posted 27 June 2009 - 03:22 PM

Thanks dude.
Alright, so should I make a Random EP thread, or just add those songs into this? And I suppose I'll get Untitled 1 up on this eventually

#4 Roger

Roger

    Bieber Believer

  • Regulars
  • PipPipPip
  • 486 posts
  • Gender:m
  • Location:Costa Mesa, CA

Posted 27 June 2009 - 05:26 PM

I would just add those songs in here. If you did Untitled 1 you are officially amazing. I'm having soo much trouble with a few of the chords.

#5 Zweiheimer

Zweiheimer

    n00b or lurker?

  • Members
  • 6 posts

Posted 28 June 2009 - 11:01 AM

It's crazy how coincidental this is. I was listening to Brazil the other day and really wanted to learn it. I never got around to looking for a tab until today and this was just posted two days ago.

Awesome work, man.

#6 Grizzly Bear Arcade

Grizzly Bear Arcade

    Awoke Alone

  • Regulars
  • PipPipPipPipPipPipPipPip
  • 1,275 posts
  • Gender:m
  • Location:Ida fuckin Ho
  • Interests:Fuckin' shit and stuff.

Posted 28 June 2009 - 03:45 PM

I agree with just posting all that in this thread.
The night keeps looking our way.

#7 The Overlord

The Overlord

    A Common Whore At The Dime

  • Members
  • Pip
  • 46 posts
  • Gender:m
  • Location:Newcastle, England

Posted 29 June 2009 - 06:07 AM

Yo - is there anywhere I can download this song? I really can't find it anywhere online for some reason. Thanks.




1 user(s) are reading this topic

0 members, 1 guests, 0 anonymous users