Jump to content


- - - - -

The Pimp and the Priest


  • Please log in to reply
2 replies to this topic

#1 Nemmet

Nemmet

    n00b or lurker?

  • Members
  • 9 posts

Posted 02 August 2008 - 09:07 AM

Saved this one from the old Flee the Factory and it's a good one so I'm posting it

The Pimp and the Priest
The Dear Hunter


Take me to the river
e|----------------------------------------------------------------
B|----------------------------------------------------------------
G|-5----54---43---32-210------------------------4-----------------
D|----5----5----5-------3--6---65---54---45----5-5----------------
A|---------------------------6----6----5--------------------------
E|----------------------------------------------------------------




Chords
   Cm  Cm?  Cm7  C/A  C/Ab  C/F   
e|-3----3---------3--------------------
B|-4----3----4----x---------1----------
G|-5----4----3----2---------2----------
D|-5----5----x----x----6----3----------
A|-3----3----3----3----3----3----------
E|-------------------------------------

 Ab7   Ab	G7   G	F	Bb   Fm   F/D   Gm   Eb  Gary 
e|4----4-----3----3----1----6-----1----1----3----------------
B|7----4-----6----3----1----6-----1----1----3----8----8------
G|5----5-----4----4----2----7-----1----1----3----x----x------
D|4----6-----3----5----3----8-----3----0----5----8----8------
A|6----6-----5----5----3----8-----3----3----5----6----7------
E|4----4-----3----3----1----6-----1---------3----------------



Verse

	 Cm		   Cm?			  Cm7			 C/F
The pimp and the priest pounce on quickened cat’s feet for the 
Ab									 G
freshest young blood innocence for the feast. 
	Cm			 Cm?		   Cm7	C/F
The book will then brew what the sinful commit;
		  Ab														  G
while the pimp and the priest prey quietly where the precious sinners sit.




Pre-Chorus


Fm	  Gm  Ab			  Cm		 Gm				Eb		Gary
Confess oh confess, in the chapel, the brothel, where we suffocate stress. 
Fm			Cm	  Gm			 Ab
We’ve got the time if you’ve got the scratch


1st time
Ab										 G
Conquer your sins while she screams on her back
2nd time
Fm		   F/D			G7			 G
Conquer your sins while she screams on her back



Chorus

Cm Cm? Cm7 C/A Ab7					  G7
Faster, save me! (while your sins remain hostage)
Cm Cm? Cm7 C/A  Ab7		   G7
Harder, I can't breathe! O0oo0Oo00OoO0o



2nd Verse Riff
e|----------------------------------------------------------------
B|---------------------------3------------------------------------
G|-----------------------3-3----5-5--5-5--5-5--4-4----------------
D|----------------3-3-5----------5----5----5----5-----------------
A|-1-1-3---5-5-6--------------------------------------------------
E|----------------------------------------------------------------

e|----------------------------------------------------------------
B|---------------------------3---4-----4-----4-----3--------------
G|-----------------------3-3----5-----5-----5-----4---------------
D|----------------3-3-5-----------5--5--5--5--5--5--5-------------
A|-1-1-3---5-5-6--------------------------------------------------
E|----------------------------------------------------------------




Cm   Cm?  Cm7  C/A   C/Ab  Cm  Ab7   G
Take me   to   the   R   i	v   e   r




Cm								
Sing softly, sing me to the lake. Sing softly, bring me to the lake. 
Fm								Gm
Sing softly, sing me to the lake. Sing softly, bring me to the lake. 


Ab								Bb
Sing softly, sing me to the lake. Sing softly, bring me to the lake. 
Ab								Bb		   *
Sing softly, sing me to the lake. Sing softly, bring me to the lake. 

*just before the chorus comes back, play a B note


#2 AlexAbstract

AlexAbstract

    A Common Whore At The Dime

  • Members
  • Pip
  • 25 posts
  • Gender:m
  • Location:West New York, NJ!!!!

Posted 03 August 2008 - 04:05 PM

AWESOME!!!! Thank YOU!!!!

#3 SallyJones

SallyJones

    Introducing of Ms. Terri

  • Regulars
  • Pip
  • 88 posts
  • Gender:m
  • Location:Florida

Posted 31 August 2008 - 09:57 PM

i love you..this song is fun to play.




1 user(s) are reading this topic

0 members, 1 guests, 0 anonymous users